  0
SECTION
  2
HEADER
  9
$ACADVER
  1
AC1009
  9
$INSBASE
 10
-67.9903064861127
 20
-350.8415530255679
 30
0.0
  9
$EXTMIN
 10
-68.19741326729919
 20
-350.8415530255679
 30
0.0
  9
$EXTMAX
 10
53.25526880116382
 20
-240.1927685347238
 30
0.0
  9
$LIMMIN
 10
-396.5846958455803
 20
-331.2304988377215
  9
$LIMMAX
 10
-99.58469584557815
 20
88.76950116227996
  9
$ORTHOMODE
 70
     1
  9
$REGENMODE
 70
     0
  9
$FILLMODE
 70
     1
  9
$QTEXTMODE
 70
     0
  9
$MIRRTEXT
 70
     0
  9
$DRAGMODE
 70
     2
  9
$LTSCALE
 40
1.0
  9
$OSMODE
 70
    32
  9
$ATTMODE
 70
     1
  9
$TEXTSIZE
 40
3.5
  9
$TRACEWID
 40
0.1
  9
$TEXTSTYLE
  7
STANDARD
  9
$CLAYER
  8
0
  9
$CELTYPE
  6
BYLAYER
  9
$CECOLOR
 62
   256
  9
$DIMSCALE
 40
1.0
  9
$DIMASZ
 40
2.5
  9
$DIMEXO
 40
1.0
  9
$DIMDLI
 40
8.0
  9
$DIMRND
 40
0.0
  9
$DIMDLE
 40
0.0
  9
$DIMEXE
 40
2.0
  9
$DIMTP
 40
0.1
  9
$DIMTM
 40
0.1
  9
$DIMTXT
 40
3.5
  9
$DIMCEN
 40
2.0
  9
$DIMTSZ
 40
0.0
  9
$DIMTOL
 70
     0
  9
$DIMLIM
 70
     0
  9
$DIMTIH
 70
     0
  9
$DIMTOH
 70
     0
  9
$DIMSE1
 70
     0
  9
$DIMSE2
 70
     0
  9
$DIMTAD
 70
     1
  9
$DIMZIN
 70
     8
  9
$DIMBLK
  1

  9
$DIMASO
 70
     1
  9
$DIMSHO
 70
     1
  9
$DIMPOST
  1

  9
$DIMAPOST
  1

  9
$DIMALT
 70
     0
  9
$DIMALTD
 70
     2
  9
$DIMALTF
 40
25.39999999999999
  9
$DIMLFAC
 40
1.0
  9
$DIMTOFL
 70
     1
  9
$DIMTVP
 40
0.0
  9
$DIMTIX
 70
     0
  9
$DIMSOXD
 70
     0
  9
$DIMSAH
 70
     0
  9
$DIMBLK1
  1

  9
$DIMBLK2
  1

  9
$DIMSTYLE
  2
*UNNAMED
  9
$DIMCLRD
 70
   256
  9
$DIMCLRE
 70
   256
  9
$DIMCLRT
 70
     2
  9
$DIMTFAC
 40
0.71
  9
$DIMGAP
 40
1.5
  9
$LUNITS
 70
     2
  9
$LUPREC
 70
     3
  9
$SKETCHINC
 40
0.1
  9
$FILLETRAD
 40
1.0
  9
$AUNITS
 70
     0
  9
$AUPREC
 70
     1
  9
$MENU
  1

  9
$ELEVATION
 40
0.0
  9
$PELEVATION
 40
0.0
  9
$THICKNESS
 40
0.0
  9
$LIMCHECK
 70
     0
  9
$BLIPMODE
 70
     0
  9
$CHAMFERA
 40
2.5
  9
$CHAMFERB
 40
2.5
  9
$SKPOLY
 70
     1
  9
$TDCREATE
 40
2449338.628715625
  9
$TDUPDATE
 40
2449394.634245717
  9
$TDINDWG
 40
0.0098916667
  9
$TDUSRTIMER
 40
0.0098916667
  9
$USRTIMER
 70
     1
  9
$ANGBASE
 50
0.0
  9
$ANGDIR
 70
     0
  9
$PDMODE
 70
     3
  9
$PDSIZE
 40
0.0
  9
$PLINEWID
 40
0.0
  9
$COORDS
 70
     2
  9
$SPLFRAME
 70
     0
  9
$SPLINETYPE
 70
     6
  9
$SPLINESEGS
 70
     8
  9
$ATTDIA
 70
     1
  9
$ATTREQ
 70
     1
  9
$HANDLING
 70
     0
  9
$HANDSEED
  5
5606
  9
$SURFTAB1
 70
     6
  9
$SURFTAB2
 70
     6
  9
$SURFTYPE
 70
     6
  9
$SURFU
 70
     6
  9
$SURFV
 70
     6
  9
$UCSNAME
  2

  9
$UCSORG
 10
0.0
 20
0.0
 30
0.0
  9
$UCSXDIR
 10
1.0
 20
0.0
 30
0.0
  9
$UCSYDIR
 10
0.0
 20
1.0
 30
0.0
  9
$PUCSNAME
  2

  9
$PUCSORG
 10
0.0
 20
0.0
 30
0.0
  9
$PUCSXDIR
 10
1.0
 20
0.0
 30
0.0
  9
$PUCSYDIR
 10
0.0
 20
1.0
 30
0.0
  9
$USERI1
 70
     0
  9
$USERI2
 70
     3
  9
$USERI3
 70
    15
  9
$USERI4
 70
     0
  9
$USERI5
 70
     0
  9
$USERR1
 40
1.0
  9
$USERR2
 40
1.0
  9
$USERR3
 40
0.0
  9
$USERR4
 40
1.0
  9
$USERR5
 40
0.0
  9
$WORLDVIEW
 70
     5
  9
$SHADEDGE
 70
     3
  9
$SHADEDIF
 70
    70
  9
$TILEMODE
 70
     1
  9
$MAXACTVP
 70
     4
  9
$PINSBASE
 10
0.0
 20
0.0
 30
0.0
  9
$PLIMCHECK
 70
     0
  9
$PEXTMIN
 10
1.000000000000000E+20
 20
1.000000000000000E+20
 30
1.000000000000000E+20
  9
$PEXTMAX
 10
-1.000000000000000E+20
 20
-1.000000000000000E+20
 30
-1.000000000000000E+20
  9
$PLIMMIN
 10
-396.5846958455781
 20
76.7695011622799
  9
$PLIMMAX
 10
-384.584695845578
 20
88.76950116227996
  9
$UNITMODE
 70
     0
  9
$VISRETAIN
 70
     0
  9
$PLINEGEN
 70
     0
  9
$PSLTSCALE
 70
     0
  9
$TREEDEPTH
 70
  3020
  9
$DWGCODEPAGE
  3
undefined
  0
ENDSEC
  0
SECTION
  2
TABLES
  0
TABLE
  2
VPORT
 70
     2
  0
VPORT
  2
*ACTIVE
 70
     0
 10
0.0
 20
0.0
 11
1.0
 21
1.0
 12
404.824561647634
 22
-379.8543513348343
 13
0.0
 23
0.0
 14
1.0
 24
1.0
 15
10.0
 25
10.0
 16
0.0
 26
0.0
 36
1.0
 17
-396.584695845578
 27
88.76950116227996
 37
0.0
 40
119.5134057060271
 41
1.275675675675675
 42
50.0
 43
0.0
 44
0.0
 50
0.0
 51
0.0
 71
     0
 72
   100
 73
     1
 74
     0
 75
     0
 76
     0
 77
     0
 78
     0
  0
ENDTAB
  0
TABLE
  2
LTYPE
 70
     2
  0
LTYPE
  2
CONTINUOUS
 70
    64
  3
Solid line
 72
    65
 73
     0
 40
0.0
  0
LTYPE
  2
ITEM-STRICHPUNKT
 70
    64
  3
__ . __ . __
 72
    65
 73
     4
 40
3.599999999999999
 49
2.399999999999999
 49
-0.6
 49
0.0
 49
-0.6
  0
ENDTAB
  0
TABLE
  2
LAYER
 70
     5
  0
LAYER
  2
0
 70
     0
 62
     7
  6
CONTINUOUS
  0
LAYER
  2
ITEM_50
 70
    64
 62
     7
  6
CONTINUOUS
  0
LAYER
  2
ITEM_25
 70
    64
 62
     3
  6
CONTINUOUS
  0
LAYER
  2
ITEM_STP
 70
    64
 62
     4
  6
ITEM-STRICHPUNKT
  0
LAYER
  2
ITEM_HILFE
 70
    64
 62
     3
  6
CONTINUOUS
  0
ENDTAB
  0
TABLE
  2
STYLE
 70
     1
  0
STYLE
  2
STANDARD
 70
     0
 40
0.0
 41
1.0
 50
0.0
 71
     0
 42
3.5
  3
GENISO
  4

  0
ENDTAB
  0
TABLE
  2
VIEW
 70
     0
  0
ENDTAB
  0
TABLE
  2
UCS
 70
     0
  0
ENDTAB
  0
TABLE
  2
APPID
 70
     1
  0
APPID
  2
ACAD
 70
    64
  0
ENDTAB
  0
TABLE
  2
DIMSTYLE
 70
     0
  0
ENDTAB
  0
ENDSEC
  0
SECTION
  2
BLOCKS
  0
ENDSEC
  0
SECTION
  2
ENTITIES
  0
LINE
  8
ITEM_25
 10
42.2457688011637
 20
-324.7716610645825
 30
0.0
 11
42.24576880116359
 21
-333.7461591735102
 31
0.0
  0
LINE
  8
ITEM_25
 10
46.26476880116382
 20
-324.7716610645823
 30
0.0
 11
46.26476880116382
 21
-333.7461591735105
 31
0.0
  0
POLYLINE
  8
ITEM_50
 66
     1
 10
0.0
 20
0.0
 30
0.0
  0
VERTEX
  8
ITEM_50
 10
46.75526880116393
 20
-316.7589101190421
 30
0.0
  0
VERTEX
  8
ITEM_50
 10
46.75526880116394
 20
-276.7589101190421
 30
0.0
  0
SEQEND
  8
ITEM_50
  0
POLYLINE
  8
ITEM_50
 66
     1
 10
0.0
 20
0.0
 30
0.0
  0
VERTEX
  8
ITEM_50
 10
41.75526880116398
 20
-276.7589101190421
 30
0.0
  0
VERTEX
  8
ITEM_50
 10
41.75526880116382
 20
-316.7589101190421
 30
0.0
  0
SEQEND
  8
ITEM_50
  0
LINE
  8
ITEM_50
 10
41.75526880116382
 20
-316.7589101190422
 30
0.0
 11
46.75526880116382
 21
-316.7589101190421
 31
0.0
  0
LINE
  8
ITEM_50
 10
36.69669015740117
 20
-318.7003314752794
 30
0.0
 11
35.25526880116382
 21
-317.2589101190421
 31
0.0
  0
ARC
  8
ITEM_50
 10
36.55526880116389
 20
-318.8417528315168
 30
0.0
 40
0.2
 50
359.9999999999999
 51
45.00000000000056
  0
LINE
  8
ITEM_50
 10
36.75526880116382
 20
-318.8417528315167
 30
0.0
 11
36.75526880116393
 21
-320.758910119047
 31
0.0
  0
ARC
  8
ITEM_50
 10
37.75526880116393
 20
-320.7589101190471
 30
0.0
 40
1.0
 50
180.0000000000003
 51
269.9999999999999
  0
LINE
  8
ITEM_50
 10
35.25526880116382
 20
-317.2589101190421
 30
0.0
 11
35.25526880116382
 21
-316.7589101190421
 31
0.0
  0
ARC
  8
ITEM_50
 10
50.29758866537571
 20
-323.7589101190471
 30
0.0
 40
2.0
 50
89.99999999999975
 51
178.3235289531933
  0
ARC
  8
ITEM_50
 10
38.21294893695193
 20
-323.7589101190471
 30
0.0
 40
2.0
 50
1.676471046806549
 51
89.99999999999975
  0
ARC
  8
ITEM_50
 10
50.75526880116393
 20
-320.7589101190471
 30
0.0
 40
1.0
 50
269.9999999999998
 51
359.9999999999996
  0
LINE
  8
ITEM_50
 10
40.21209285396781
 20
-323.7003985897685
 30
0.0
 11
40.75526880116598
 21
-342.2589101190421
 31
0.0
  0
ARC
  8
ITEM_50
 10
51.95526880116398
 20
-318.8417528315168
 30
0.0
 40
0.2
 50
135.0000000000001
 51
179.9999999999999
  0
LINE
  8
ITEM_50
 10
51.75526880116382
 20
-318.8417528315168
 30
0.0
 11
51.75526880116382
 21
-320.7589101190471
 31
0.0
  0
LINE
  8
ITEM_50
 10
37.75526880116382
 20
-321.7589101190462
 30
0.0
 11
50.75526880116382
 21
-321.7589101190471
 31
0.0
  0
LINE
  8
ITEM_50
 10
48.29844474836005
 20
-323.7003985897686
 30
0.0
 11
47.75526880116166
 21
-342.2589101190421
 31
0.0
  0
ARC
  8
ITEM_50
 10
44.25526880116393
 20
-332.2589101190449
 30
0.0
 40
2.5
 50
293.5781784782102
 51
359.9999999999999
  0
LINE
  8
ITEM_50
 10
45.25526880116416
 20
-336.7589101190422
 30
0.0
 11
45.25526880116427
 21
-334.5501979665227
 31
0.0
  0
LINE
  8
ITEM_50
 10
43.25526880116416
 20
-336.7589101190422
 30
0.0
 11
43.25526880116427
 21
-334.550197966523
 31
0.0
  0
LINE
  8
ITEM_50
 10
46.75526880116382
 20
-332.2589101190449
 30
0.0
 11
46.75526880116382
 21
-326.2589101190449
 31
0.0
  0
LINE
  8
ITEM_50
 10
41.75526880116382
 20
-326.2589101190449
 30
0.0
 11
41.75526880116382
 21
-332.2589101190449
 31
0.0
  0
ARC
  8
ITEM_50
 10
44.25526880116393
 20
-332.2589101190449
 30
0.0
 40
2.5
 50
179.9999999999999
 51
246.4218215218065
  0
ARC
  8
ITEM_50
 10
44.25526880116382
 20
-326.2589101190449
 30
0.0
 40
2.5
 50
359.9999999999999
 51
179.9999999999999
  0
LINE
  8
ITEM_50
 10
41.75526880116416
 20
-342.2589101190422
 30
0.0
 11
43.25526880116416
 21
-336.7589101190422
 31
0.0
  0
LINE
  8
ITEM_50
 10
45.25526880116416
 20
-336.7589101190422
 30
0.0
 11
46.75526880116416
 21
-342.2589101190422
 31
0.0
  0
LINE
  8
ITEM_50
 10
46.75526880116416
 20
-342.2589101190422
 30
0.0
 11
47.75526880116166
 21
-342.2589101190421
 31
0.0
  0
LINE
  8
ITEM_50
 10
40.75526880116154
 20
-342.2589101190421
 30
0.0
 11
41.75526880116416
 21
-342.2589101190422
 31
0.0
  0
POLYLINE
  8
ITEM_50
 66
     1
 10
0.0
 20
0.0
 30
0.0
 70
     1
  0
VERTEX
  8
ITEM_50
 10
36.75526880116382
 20
-276.7589101190421
 30
0.0
  0
VERTEX
  8
ITEM_50
 10
51.75526880116382
 20
-276.7589101190421
 30
0.0
  0
VERTEX
  8
ITEM_50
 10
51.75526880116382
 20
-275.1589101190422
 30
0.0
  0
VERTEX
  8
ITEM_50
 10
36.75526880116382
 20
-275.1589101190422
 30
0.0
  0
SEQEND
  8
ITEM_50
  0
LINE
  8
ITEM_50
 10
37.75526880116382
 20
-270.6589101190422
 30
0.0
 11
37.75526880116394
 21
-262.0986413975333
 31
0.0
  0
LINE
  8
ITEM_50
 10
49.25526880116382
 20
-271.1589101190421
 30
0.0
 11
49.25526880116394
 21
-275.1589101190421
 31
0.0
  0
LINE
  8
ITEM_50
 10
39.25526880116394
 20
-275.1589101190421
 30
0.0
 11
39.25526880116394
 21
-271.1589101190422
 31
0.0
  0
LINE
  8
ITEM_50
 10
47.75526880116337
 20
-250.6589101190421
 30
0.0
 11
44.90526880116141
 21
-250.6589101190454
 31
0.0
  0
LINE
  8
ITEM_50
 10
48.25526880116405
 20
-252.1589101190416
 30
0.0
 11
48.25526880116439
 21
-253.0035703132169
 31
0.0
  0
LINE
  8
ITEM_50
 10
48.25526880116394
 20
-252.1589101190415
 30
0.0
 11
45.03304657895393
 21
-252.1589101190453
 31
0.0
  0
LINE
  8
ITEM_50
 10
48.25526880116405
 20
-252.1589101190415
 30
0.0
 11
47.75526880116337
 21
-250.6589101190421
 31
0.0
  0
LINE
  8
ITEM_50
 10
44.90526880116141
 20
-250.6589101190454
 30
0.0
 11
44.90526880116255
 21
-252.1589101190455
 31
0.0
  0
LINE
  8
ITEM_50
 10
43.60526880116135
 20
-250.6589101190469
 30
0.0
 11
43.60526880116226
 21
-251.7846382743814
 31
0.0
  0
LINE
  8
ITEM_50
 10
38.25526880116382
 20
-271.1589101190422
 30
0.0
 11
50.25526880116382
 21
-271.1589101190421
 31
0.0
  0
ARC
  8
ITEM_50
 10
38.25526880116394
 20
-270.6589101190422
 30
0.0
 40
0.5
 50
179.9999999999999
 51
270.0000000000003
  0
LINE
  8
ITEM_25
 10
38.59211565319726
 20
-270.5624400213499
 30
0.0
 11
49.91842194913039
 21
-270.5624400213498
 31
0.0
  0
LINE
  8
ITEM_50
 10
49.25526880116382
 20
-275.1589101190421
 30
0.0
 11
39.25526880116382
 21
-275.1589101190421
 31
0.0
  0
LINE
  8
ITEM_50
 10
46.75526880116382
 20
-275.1589101190422
 30
0.0
 11
41.75526880116382
 21
-275.1589101190421
 31
0.0
  0
LINE
  8
ITEM_50
 10
40.63919737259295
 20
-251.0071244047565
 30
0.0
 11
40.75526880116462
 21
-250.6589101190421
 31
0.0
  0
LINE
  8
ITEM_50
 10
40.75526880116462
 20
-250.6589101190421
 30
0.0
 11
43.60526880116646
 21
-250.6589101190454
 31
0.0
  0
LINE
  8
ITEM_50
 10
35.78132923114089
 20
-259.2795635351756
 30
0.0
 11
10.97818132820788
 21
-250.2519559824058
 31
0.0
  0
ARC
  8
ITEM_50
 10
50.25526880116394
 20
-270.6589101190421
 30
0.0
 40
0.5
 50
270.0000000000003
 51
0.0
  0
LINE
  8
ITEM_50
 10
50.75526880116394
 20
-254.4305610421379
 30
0.0
 11
50.75526880116382
 21
-270.6589101190421
 31
0.0
  0
LINE
  8
ITEM_50
 10
50.00883743911862
 20
-253.4632436454961
 30
0.0
 11
0.2546529899481769
 21
-240.4208846151317
 31
0.0
  0
ARC
  8
ITEM_50
 10
34.75526880116394
 20
-262.0986413975334
 30
0.0
 40
3.0
 50
359.9999999999999
 51
70.0
  0
ARC
  8
ITEM_50
 10
49.75526880116394
 20
-254.430561042138
 30
0.0
 40
1.0
 50
359.9999999999998
 51
75.31121322668215
  0
LINE
  8
ITEM_50
 10
7.34348271181404
 20
-251.5894783066996
 30
0.0
 11
3.219072184235024
 21
-250.0883156407667
 31
0.0
  0
ARC
  8
ITEM_50
 10
5.613213187514766
 20
-243.5104672952654
 30
0.0
 40
7.0
 50
159.285542098629
 51
250.0
  0
ARC
  8
ITEM_50
 10
0.0010843519936046
 20
-241.3882020117734
 30
0.0
 40
1.0
 50
75.31121322668239
 51
159.285542098629
  0
ARC
  8
ITEM_50
 10
8.369543141790991
 20
-248.7704004443419
 30
0.0
 40
3.0
 50
250.0
 51
330.4059317731398
  0
ARC
  8
ITEM_25
 10
4.282384278538366
 20
-247.8215000706395
 30
0.0
 40
7.225563981979589
 50
349.342995827602
 51
15.07989295984564
  0
ARC
  8
ITEM_25
 10
28.56657991360675
 20
-255.6126332056816
 30
0.0
 40
11.34900616440529
 50
332.3658229917327
 51
1.321405164522833
  0
LINE
  8
ITEM_25
 10
50.00883743911862
 20
-254.618045630855
 30
0.0
 11
0.2546529899481769
 21
-241.5756866004907
 31
0.0
  0
LINE
  8
ITEM_25
 10
37.73403299266539
 20
-257.627537811959
 30
0.0
 11
12.93088508973227
 21
-248.5999302591891
 31
0.0
  0
LINE
  8
ITEM_25
 10
46.26476880116398
 20
-276.7589101190421
 30
0.0
 11
46.26476880116382
 21
-316.7589101190421
 31
0.0
  0
LINE
  8
ITEM_25
 10
42.24576880116403
 20
-276.7589101190421
 30
0.0
 11
42.2457688011637
 21
-316.7589101190422
 31
0.0
  0
LINE
  8
ITEM_50
 10
49.25526880116394
 20
-275.1589101190421
 30
0.0
 11
39.25526880116394
 21
-275.1589101190421
 31
0.0
  0
LINE
  8
ITEM_50
 10
46.75526880116394
 20
-275.1589101190421
 30
0.0
 11
41.75526880116394
 21
-275.1589101190421
 31
0.0
  0
LINE
  8
ITEM_50
 10
36.75526880116394
 20
-276.7589101190421
 30
0.0
 11
51.75526880116394
 21
-276.7589101190421
 31
0.0
  0
LINE
  8
ITEM_50
 10
51.75526880116394
 20
-276.7589101190421
 30
0.0
 11
51.75526880116394
 21
-275.1589101190421
 31
0.0
  0
LINE
  8
ITEM_50
 10
51.75526880116394
 20
-275.1589101190421
 30
0.0
 11
36.75526880116394
 21
-275.1589101190421
 31
0.0
  0
LINE
  8
ITEM_50
 10
36.75526880116394
 20
-275.1589101190421
 30
0.0
 11
36.75526880116394
 21
-276.7589101190421
 31
0.0
  0
LINE
  8
ITEM_STP
 10
44.2552688011637
 20
-350.7931741791167
 30
0.0
 11
44.25526880116383
 21
-251.9550266238964
 31
0.0
  0
POLYLINE
  8
ITEM_50
 66
     1
 10
0.0
 20
0.0
 30
0.0
  0
VERTEX
  8
ITEM_50
 10
-37.49030648611375
 20
-316.758910119042
 30
0.0
  0
VERTEX
  8
ITEM_50
 10
-37.49030648611359
 20
-276.7589101190421
 30
0.0
  0
SEQEND
  8
ITEM_50
  0
POLYLINE
  8
ITEM_50
 66
     1
 10
0.0
 20
0.0
 30
0.0
  0
VERTEX
  8
ITEM_50
 10
-37.49030648611375
 20
-336.758910119042
 30
0.0
  0
VERTEX
  8
ITEM_50
 10
-37.49030648611363
 20
-332.258910119042
 30
0.0
  0
SEQEND
  8
ITEM_50
  0
LINE
  8
ITEM_25
 10
-37.98080648611374
 20
-332.258910119042
 30
0.0
 11
-37.98080648611374
 21
-336.758910119042
 31
0.0
  0
POLYLINE
  8
ITEM_50
 66
     1
 10
0.0
 20
0.0
 30
0.0
  0
VERTEX
  8
ITEM_50
 10
-42.49030648611363
 20
-332.258910119042
 30
0.0
  0
VERTEX
  8
ITEM_50
 10
-42.49030648611375
 20
-336.758910119042
 30
0.0
  0
SEQEND
  8
ITEM_50
  0
POLYLINE
  8
ITEM_50
 66
     1
 10
0.0
 20
0.0
 30
0.0
  0
VERTEX
  8
ITEM_50
 10
-42.49030648611359
 20
-276.7589101190421
 30
0.0
  0
VERTEX
  8
ITEM_50
 10
-42.49030648611375
 20
-316.758910119042
 30
0.0
  0
SEQEND
  8
ITEM_50
  0
LINE
  8
ITEM_25
 10
-41.99980648611375
 20
-332.258910119042
 30
0.0
 11
-41.99980648611375
 21
-336.758910119042
 31
0.0
  0
LINE
  8
ITEM_50
 10
-42.99030648611386
 20
-334.7589101190419
 30
0.0
 11
-43.49030648611363
 21
-334.7589101190419
 31
0.0
  0
ARC
  8
ITEM_50
 10
41.49633736943786
 20
-337.7589101190422
 30
0.0
 40
1.0
 50
152.4154849494506
 51
179.9999999999999
  0
ARC
  8
ITEM_50
 10
47.01420023289068
 20
-337.7589101190422
 30
0.0
 40
1.0
 50
359.9999999999999
 51
27.58451505065265
  0
LINE
  8
ITEM_50
 10
40.49633736943786
 20
-337.7589101190422
 30
0.0
 11
40.49633736943786
 21
-347.0089101190359
 31
0.0
  0
LINE
  8
ITEM_50
 10
48.01420023289068
 20
-337.7589101190422
 30
0.0
 11
48.01420023289068
 21
-347.0089101190358
 31
0.0
  0
LINE
  8
ITEM_50
 10
47.97896405412842
 20
-346.7457927132437
 30
0.0
 11
45.25526880116416
 21
-336.7589101190422
 31
0.0
  0
LINE
  8
ITEM_50
 10
43.25526880116427
 20
-334.7589101190422
 30
0.0
 11
43.25526880116416
 21
-336.7589101190422
 31
0.0
  0
LINE
  8
ITEM_50
 10
40.53157354820012
 20
-346.7457927132438
 30
0.0
 11
43.25526880116416
 21
-336.7589101190422
 31
0.0
  0
LINE
  8
ITEM_50
 10
45.25526880116427
 20
-334.7589101190422
 30
0.0
 11
45.25526880116416
 21
-336.7589101190422
 31
0.0
  0
LINE
  8
ITEM_50
 10
43.25526880116427
 20
-334.7589101190422
 30
0.0
 11
45.25526880116427
 21
-334.7589101190422
 31
0.0
  0
LINE
  8
ITEM_50
 10
44.25526880117053
 20
-348.0089101190359
 30
0.0
 11
41.49633736943786
 21
-348.0089101190359
 31
0.0
  0
LINE
  8
ITEM_50
 10
47.01420023289068
 20
-348.0089101190358
 30
0.0
 11
44.25526880117053
 21
-348.0089101190359
 31
0.0
  0
LINE
  8
ITEM_50
 10
-27.99030648611329
 20
-348.0089101190355
 30
0.0
 11
-51.99030648611329
 21
-348.0089101190354
 31
0.0
  0
LINE
  8
ITEM_50
 10
-51.99030648611329
 20
-348.0089101190354
 30
0.0
 11
-51.99030648611329
 21
-334.758910119042
 31
0.0
  0
ARC
  8
ITEM_50
 10
41.49633736943786
 20
-347.0089101190359
 30
0.0
 40
1.0
 50
164.7448812969423
 51
269.9999999999999
  0
ARC
  8
ITEM_50
 10
47.01420023289068
 20
-347.0089101190359
 30
0.0
 40
1.0
 50
270.0000000000007
 51
15.25511870305868
  0
LINE
  8
ITEM_50
 10
-36.99030648611352
 20
-336.258910119042
 30
0.0
 11
-36.99030648611341
 21
-334.7589101190419
 31
0.0
  0
LINE
  8
ITEM_50
 10
-36.99030648611352
 20
-336.7589101190419
 30
0.0
 11
-36.49030648611375
 21
-336.7589101190419
 31
0.0
  0
LINE
  8
ITEM_50
 10
-42.99030648611363
 20
-336.758910119042
 30
0.0
 11
-42.99030648611363
 21
-347.0089101190351
 31
0.0
  0
LINE
  8
ITEM_50
 10
-42.49030648611363
 20
-336.758910119042
 30
0.0
 11
-37.49030648611363
 21
-336.758910119042
 31
0.0
  0
ARC
  8
ITEM_50
 10
-37.49030648611363
 20
-337.258910119042
 30
0.0
 40
0.5
 50
359.9999999999988
 51
90.0
  0
ARC
  8
ITEM_50
 10
-42.49030648611363
 20
-337.258910119042
 30
0.0
 40
0.5
 50
89.99999999999992
 51
179.9999999999998
  0
LINE
  8
ITEM_50
 10
-42.99030648611363
 20
-347.0089101190351
 30
0.0
 11
-36.99030648611375
 21
-347.008910119035
 31
0.0
  0
ARC
  8
ITEM_50
 10
-42.49030648611363
 20
-336.258910119042
 30
0.0
 40
0.5
 50
179.9999999999999
 51
269.9999999999999
  0
ARC
  8
ITEM_50
 10
-37.49030648611352
 20
-336.258910119042
 30
0.0
 40
0.5
 50
269.9999999999999
 51
359.9999999999991
  0
LINE
  8
ITEM_50
 10
-27.99030648611329
 20
-334.7589101190419
 30
0.0
 11
-27.99030648611329
 21
-348.0089101190355
 31
0.0
  0
LINE
  8
ITEM_50
 10
-43.49030648611375
 20
-336.758910119042
 30
0.0
 11
-42.99030648611363
 21
-336.758910119042
 31
0.0
  0
LINE
  8
ITEM_50
 10
-42.99030648611352
 20
-334.758910119042
 30
0.0
 11
-42.99030648611363
 21
-336.258910119042
 31
0.0
  0
LINE
  8
ITEM_50
 10
-36.99030648611375
 20
-347.008910119035
 30
0.0
 11
-36.99030648611352
 21
-336.758910119042
 31
0.0
  0
LINE
  8
ITEM_50
 10
-36.99030648611341
 20
-334.7589101190419
 30
0.0
 11
-36.49030648611363
 21
-334.7589101190419
 31
0.0
  0
LINE
  8
ITEM_50
 10
-12.99030648611272
 20
-321.7589101190484
 30
0.0
 11
-25.99030648611488
 21
-321.7589101190484
 31
0.0
  0
LINE
  8
ITEM_50
 10
-11.99030648611272
 20
-316.7589101190421
 30
0.0
 11
-67.9903064861127
 21
-316.758910119042
 31
0.0
  0
LINE
  8
ITEM_50
 10
-67.9903064861127
 20
-320.7589101190483
 30
0.0
 11
-67.9903064861127
 21
-316.758910119042
 31
0.0
  0
LINE
  8
ITEM_50
 10
-50.99030648611272
 20
-342.2589101190466
 30
0.0
 11
-44.49030648611375
 21
-342.2589101190465
 31
0.0
  0
LINE
  8
ITEM_50
 10
-53.99030648611272
 20
-321.7589101190483
 30
0.0
 11
-66.9903064861127
 21
-321.7589101190483
 31
0.0
  0
LINE
  8
ITEM_50
 10
-51.99030648611272
 20
-321.7589101190483
 30
0.0
 11
-51.99030648611272
 21
-341.2589101190466
 31
0.0
  0
LINE
  8
ITEM_50
 10
-27.99030648611272
 20
-321.7589101190484
 30
0.0
 11
-27.99030648611272
 21
-341.2589101190466
 31
0.0
  0
LINE
  8
ITEM_50
 10
-27.99030648611272
 20
-321.7589101190484
 30
0.0
 11
-51.99030648611272
 21
-321.7589101190483
 31
0.0
  0
LINE
  8
ITEM_50
 10
-11.99030648611272
 20
-316.7589101190421
 30
0.0
 11
-11.99030648611272
 21
-320.7589101190484
 31
0.0
  0
ARC
  8
ITEM_50
 10
-26.99030648611477
 20
-321.7589101190505
 30
0.0
 40
1.0
 50
0.000000000123741
 51
179.9999999998761
  0
ARC
  8
ITEM_50
 10
-52.99030648611477
 20
-321.7589101190482
 30
0.0
 40
0.9999999999977547
 50
359.9999999999999
 51
179.9999999999999
  0
ARC
  8
ITEM_50
 10
-50.99030648611272
 20
-341.2589101190466
 30
0.0
 40
1.0
 50
179.9999999999999
 51
269.9999999999998
  0
ARC
  8
ITEM_50
 10
-28.99030648611272
 20
-341.2589101190466
 30
0.0
 40
1.0
 50
269.9999999999998
 51
359.9999999999999
  0
LINE
  8
ITEM_50
 10
-11.99030648611272
 20
-318.7589101190421
 30
0.0
 11
-67.9903064861127
 21
-318.758910119042
 31
0.0
  0
ARC
  8
ITEM_50
 10
-66.99030648611264
 20
-320.7589101190482
 30
0.0
 40
1.0
 50
179.9999999999999
 51
269.9999999999999
  0
ARC
  8
ITEM_50
 10
-12.99030648611261
 20
-320.7589101190484
 30
0.0
 40
1.0
 50
269.9999999999998
 51
359.9999999999999
  0
LINE
  8
ITEM_50
 10
-11.99030648611272
 20
-317.2589101190421
 30
0.0
 11
-67.9903064861127
 21
-317.258910119042
 31
0.0
  0
LINE
  8
ITEM_50
 10
-43.49030648611375
 20
-333.258910119042
 30
0.0
 11
-43.49030648611375
 21
-341.2589101190466
 31
0.0
  0
LINE
  8
ITEM_50
 10
-36.49030648611375
 20
-333.258910119042
 30
0.0
 11
-36.49030648611375
 21
-341.2589101190466
 31
0.0
  0
LINE
  8
ITEM_50
 10
-37.49030648611375
 20
-332.258910119042
 30
0.0
 11
-42.49030648611375
 21
-332.258910119042
 31
0.0
  0
LINE
  8
ITEM_50
 10
-35.49030648611375
 20
-342.2589101190466
 30
0.0
 11
-28.99030648611272
 21
-342.2589101190466
 31
0.0
  0
ARC
  8
ITEM_50
 10
-44.49030648611375
 20
-341.2589101190466
 30
0.0
 40
1.0
 50
269.9999999999999
 51
359.9999999999999
  0
ARC
  8
ITEM_50
 10
-35.49030648611375
 20
-341.2589101190466
 30
0.0
 40
1.0
 50
179.9999999999999
 51
269.9999999999999
  0
ARC
  8
ITEM_50
 10
-42.49030648611375
 20
-333.258910119042
 30
0.0
 40
1.0
 50
89.99999999999992
 51
179.9999999999999
  0
ARC
  8
ITEM_50
 10
-37.49030648611375
 20
-333.258910119042
 30
0.0
 40
1.0
 50
359.9999999999999
 51
89.99999999999992
  0
LINE
  8
ITEM_STP
 10
-39.99030648611363
 20
-249.8346449573653
 30
0.0
 11
-39.99030648611375
 21
-350.8415530255679
 31
0.0
  0
LINE
  8
ITEM_50
 10
-47.49030648611351
 20
-275.158910119042
 30
0.0
 11
-47.49030648611351
 21
-276.758910119042
 31
0.0
  0
LINE
  8
ITEM_50
 10
-32.49030648611351
 20
-275.158910119042
 30
0.0
 11
-47.49030648611351
 21
-275.158910119042
 31
0.0
  0
LINE
  8
ITEM_50
 10
-32.49030648611351
 20
-276.758910119042
 30
0.0
 11
-32.49030648611351
 21
-275.158910119042
 31
0.0
  0
LINE
  8
ITEM_50
 10
-47.49030648611351
 20
-276.758910119042
 30
0.0
 11
-32.49030648611351
 21
-276.758910119042
 31
0.0
  0
LINE
  8
ITEM_50
 10
-46.49030648611363
 20
-252.2274530714912
 30
0.0
 11
-46.49030648611363
 21
-270.6589101190419
 31
0.0
  0
ARC
  8
ITEM_50
 10
-45.99030648611351
 20
-270.6589101190419
 30
0.0
 40
0.5
 50
179.9999999999998
 51
269.9999999999995
  0
LINE
  8
ITEM_50
 10
-35.99030648611044
 20
-252.1589101190508
 30
0.0
 11
-36.49030648611158
 21
-250.6589101190501
 31
0.0
  0
LINE
  8
ITEM_50
 10
-37.49030648611351
 20
-275.158910119042
 30
0.0
 11
-42.49030648611351
 21
-275.158910119042
 31
0.0
  0
LINE
  8
ITEM_50
 10
-34.99030648611351
 20
-275.158910119042
 30
0.0
 11
-44.99030648611351
 21
-275.1589101190419
 31
0.0
  0
LINE
  8
ITEM_25
 10
-34.32715333814706
 20
-270.5624400213497
 30
0.0
 11
-45.65345963408019
 21
-270.5624400213496
 31
0.0
  0
ARC
  8
ITEM_50
 10
-33.99030648611351
 20
-270.6589101190421
 30
0.0
 40
0.5
 50
269.9999999999995
 51
359.9999999999999
  0
LINE
  8
ITEM_50
 10
-33.99030648611363
 20
-271.158910119042
 30
0.0
 11
-45.99030648611363
 21
-271.1589101190419
 31
0.0
  0
LINE
  8
ITEM_50
 10
-43.99030648611363
 20
-252.1589101190414
 30
0.0
 11
-43.49030648611294
 21
-250.658910119042
 31
0.0
  0
LINE
  8
ITEM_50
 10
-43.99030648611363
 20
-252.1589101190414
 30
0.0
 11
-35.99030648611044
 21
-252.1589101190508
 31
0.0
  0
LINE
  8
ITEM_50
 10
-43.99030648611363
 20
-252.1589101190415
 30
0.0
 11
-43.99030648611374
 21
-252.4853795780878
 31
0.0
  0
LINE
  8
ITEM_50
 10
-43.49030648611294
 20
-250.658910119042
 30
0.0
 11
-36.49030648611158
 21
-250.6589101190501
 31
0.0
  0
LINE
  8
ITEM_50
 10
-34.99030648611351
 20
-275.158910119042
 30
0.0
 11
-34.99030648611385
 21
-271.158910119042
 31
0.0
  0
LINE
  8
ITEM_50
 10
-44.99030648611363
 20
-271.1589101190419
 30
0.0
 11
-44.99030648611351
 21
-275.1589101190419
 31
0.0
  0
LINE
  8
ITEM_50
 10
-33.49030648611363
 20
-270.6589101190421
 30
0.0
 11
-33.49030648611351
 21
-252.2274530714914
 31
0.0
  0
LINE
  8
ITEM_50
 10
-44.96865520039641
 20
-250.5415055173459
 30
0.0
 11
-44.14195883995881
 21
-241.7328981565715
 31
0.0
  0
ARC
  8
ITEM_50
 10
-40.45629813981388
 20
-240.9032107754975
 30
0.0
 40
12.10932901375682
 50
253.031746026031
 51
291.6419911936546
  0
ARC
  8
ITEM_50
 10
-45.43358746209144
 20
-250.4544074610703
 30
0.0
 40
0.4730201680392394
 50
299.8450950346786
 51
349.3894811766993
  0
POLYLINE
  8
ITEM_50
 66
     1
 10
0.0
 20
0.0
 30
0.0
 75
     6
  0
VERTEX
  8
ITEM_50
 10
-45.19818576472044
 20
-250.864692874224
 30
0.0
  0
VERTEX
  8
ITEM_50
 10
-45.35269612597294
 20
-250.9356168873221
 30
0.0
  0
VERTEX
  8
ITEM_50
 10
-45.50006919004425
 20
-251.0059136001688
 30
0.0
  0
VERTEX
  8
ITEM_50
 10
-45.62825972051205
 20
-251.0697699840402
 30
0.0
  0
VERTEX
  8
ITEM_50
 10
-45.73979169510328
 20
-251.1280606337915
 30
0.0
  0
VERTEX
  8
ITEM_50
 10
-45.83718909154463
 20
-251.1816601442778
 30
0.0
  0
VERTEX
  8
ITEM_50
 10
-45.9229758875628
 20
-251.2314431103543
 30
0.0
  0
VERTEX
  8
ITEM_50
 10
-45.99967606088448
 20
-251.2782841268763
 30
0.0
  0
VERTEX
  8
ITEM_50
 10
-46.0694603507166
 20
-251.3229925448569
 30
0.0
  0
VERTEX
  8
ITEM_50
 10
-46.13308654218672
 20
-251.3661167399427
 30
0.0
  0
VERTEX
  8
ITEM_50
 10
-46.19095918190264
 20
-251.4081398439387
 30
0.0
  0
VERTEX
  8
ITEM_50
 10
-46.24348281647194
 20
-251.4495449886495
 30
0.0
  0
VERTEX
  8
ITEM_50
 10
-46.29106199250241
 20
-251.4908153058798
 30
0.0
  0
VERTEX
  8
ITEM_50
 10
-46.33410125660173
 20
-251.5324339274346
 30
0.0
  0
VERTEX
  8
ITEM_50
 10
-46.3730051553777
 20
-251.5748839851185
 30
0.0
  0
VERTEX
  8
ITEM_50
 10
-46.40817823543812
 20
-251.6186486107363
 30
0.0
  0
VERTEX
  8
ITEM_50
 10
-46.43991641513462
 20
-251.6640910894435
 30
0.0
  0
VERTEX
  8
ITEM_50
 10
-46.46808109979638
 20
-251.7110953197989
 30
0.0
  0
VERTEX
  8
ITEM_50
 10
-46.4924250664963
 20
-251.7594253537114
 30
0.0
  0
VERTEX
  8
ITEM_50
 10
-46.51270109230738
 20
-251.8088452430905
 30
0.0
  0
VERTEX
  8
ITEM_50
 10
-46.52866195430288
 20
-251.8591190398456
 30
0.0
  0
VERTEX
  8
ITEM_50
 10
-46.54006042955557
 20
-251.9100107958857
 30
0.0
  0
VERTEX
  8
ITEM_50
 10
-46.54664929513881
 20
-251.9612845631204
 30
0.0
  0
VERTEX
  8
ITEM_50
 10
-46.5481813281255
 20
-252.0127043934588
 30
0.0
  0
VERTEX
  8
ITEM_50
 10
-46.54432502504533
 20
-252.06414482244
 30
0.0
  0
VERTEX
  8
ITEM_50
 10
-46.53441176025517
 20
-252.1159223201224
 30
0.0
  0
VERTEX
  8
ITEM_50
 10
-46.51768862756835
 20
-252.1684638401936
 30
0.0
  0
VERTEX
  8
ITEM_50
 10
-46.4934027207983
 20
-252.2221963363417
 30
0.0
  0
VERTEX
  8
ITEM_50
 10
-46.46080113375835
 20
-252.2775467622547
 30
0.0
  0
VERTEX
  8
ITEM_50
 10
-46.41913096026194
 20
-252.3349420716203
 30
0.0
  0
VERTEX
  8
ITEM_50
 10
-46.3676392941225
 20
-252.3948092181268
 30
0.0
  0
VERTEX
  8
ITEM_50
 10
-46.30557322915347
 20
-252.4575751554618
 30
0.0
  0
VERTEX
  8
ITEM_50
 10
-46.23263684700287
 20
-252.5234514878657
 30
0.0
  0
VERTEX
  8
ITEM_50
 10
-46.15036218065727
 20
-252.5917884217867
 30
0.0
  0
VERTEX
  8
ITEM_50
 10
-46.06073825093806
 20
-252.6617208142259
 30
0.0
  0
VERTEX
  8
ITEM_50
 10
-45.96575407866651
 20
-252.7323835221841
 30
0.0
  0
VERTEX
  8
ITEM_50
 10
-45.867398684664
 20
-252.8029114026617
 30
0.0
  0
VERTEX
  8
ITEM_50
 10
-45.76766108975169
 20
-252.8724393126598
 30
0.0
  0
VERTEX
  8
ITEM_50
 10
-45.66853031475107
 20
-252.9401021091789
 30
0.0
  0
VERTEX
  8
ITEM_50
 10
-45.5719953804833
 20
-253.0050346492199
 30
0.0
  0
VERTEX
  8
ITEM_50
 10
-45.47941226724463
 20
-253.0666376995364
 30
0.0
  0
VERTEX
  8
ITEM_50
 10
-45.38960479323116
 20
-253.1253756658945
 30
0.0
  0
VERTEX
  8
ITEM_50
 10
-45.30076373611398
 20
-253.1819788638129
 30
0.0
  0
VERTEX
  8
ITEM_50
 10
-45.21107987356395
 20
-253.2371776088103
 30
0.0
  0
VERTEX
  8
ITEM_50
 10
-45.11874398325226
 20
-253.2917022164058
 30
0.0
  0
VERTEX
  8
ITEM_50
 10
-45.02194684284989
 20
-253.3462830021181
 30
0.0
  0
VERTEX
  8
ITEM_50
 10
-44.91887923002769
 20
-253.4016502814661
 30
0.0
  0
VERTEX
  8
ITEM_50
 10
-44.80773192245685
 20
-253.4585343699686
 30
0.0
  0
VERTEX
  8
ITEM_50
 10
-44.68695603104213
 20
-253.5174773864531
 30
0.0
  0
VERTEX
  8
ITEM_50
 10
-44.55604399962276
 20
-253.5782686629814
 30
0.0
  0
VERTEX
  8
ITEM_50
 10
-44.41474860527176
 20
-253.6405093349242
 30
0.0
  0
VERTEX
  8
ITEM_50
 10
-44.26282262506236
 20
-253.7038005376516
 30
0.0
  0
VERTEX
  8
ITEM_50
 10
-44.10001883606746
 20
-253.7677434065343
 30
0.0
  0
VERTEX
  8
ITEM_50
 10
-43.9260900153602
 20
-253.8319390769429
 30
0.0
  0
VERTEX
  8
ITEM_50
 10
-43.7407889400137
 20
-253.8959886842476
 30
0.0
  0
VERTEX
  8
ITEM_50
 10
-43.54386838710086
 20
-253.959493363819
 30
0.0
  0
VERTEX
  8
ITEM_50
 10
-43.33209240413616
 20
-254.0221138435973
 30
0.0
  0
VERTEX
  8
ITEM_50
 10
-43.09027012039899
 20
-254.0837492218016
 30
0.0
  0
VERTEX
  8
ITEM_50
 10
-42.80022193561006
 20
-254.1443581892204
 30
0.0
  0
VERTEX
  8
ITEM_50
 10
-42.44376824949011
 20
-254.2038994366425
 30
0.0
  0
VERTEX
  8
ITEM_50
 10
-42.00272946175987
 20
-254.2623316548567
 30
0.0
  0
VERTEX
  8
ITEM_50
 10
-41.45892597213997
 20
-254.3196135346516
 30
0.0
  0
VERTEX
  8
ITEM_50
 10
-40.79417818035124
 20
-254.3757037668161
 30
0.0
  0
VERTEX
  8
ITEM_50
 10
-39.99030648611442
 20
-254.4305610421387
 30
0.0
  0
SEQEND
  8
ITEM_50
  0
POLYLINE
  8
ITEM_50
 66
     1
 10
0.0
 20
0.0
 30
0.0
 75
     6
  0
VERTEX
  8
ITEM_50
 10
-34.78242720750659
 20
-250.864692874224
 30
0.0
  0
VERTEX
  8
ITEM_50
 10
-34.62791684625408
 20
-250.9356168873221
 30
0.0
  0
VERTEX
  8
ITEM_50
 10
-34.48054378218289
 20
-251.0059136001688
 30
0.0
  0
VERTEX
  8
ITEM_50
 10
-34.35235325171509
 20
-251.0697699840402
 30
0.0
  0
VERTEX
  8
ITEM_50
 10
-34.24082127712386
 20
-251.1280606337915
 30
0.0
  0
VERTEX
  8
ITEM_50
 10
-34.14342388068251
 20
-251.1816601442778
 30
0.0
  0
VERTEX
  8
ITEM_50
 10
-34.05763708466434
 20
-251.2314431103543
 30
0.0
  0
VERTEX
  8
ITEM_50
 10
-33.98093691134265
 20
-251.2782841268763
 30
0.0
  0
VERTEX
  8
ITEM_50
 10
-33.91115262151054
 20
-251.3229925448569
 30
0.0
  0
VERTEX
  8
ITEM_50
 10
-33.84752643004042
 20
-251.3661167399427
 30
0.0
  0
VERTEX
  8
ITEM_50
 10
-33.7896537903245
 20
-251.4081398439387
 30
0.0
  0
VERTEX
  8
ITEM_50
 10
-33.7371301557552
 20
-251.4495449886495
 30
0.0
  0
VERTEX
  8
ITEM_50
 10
-33.68955097972473
 20
-251.4908153058798
 30
0.0
  0
VERTEX
  8
ITEM_50
 10
-33.6465117156253
 20
-251.5324339274346
 30
0.0
  0
VERTEX
  8
ITEM_50
 10
-33.60760781684933
 20
-251.5748839851185
 30
0.0
  0
VERTEX
  8
ITEM_50
 10
-33.57243473678902
 20
-251.6186486107363
 30
0.0
  0
VERTEX
  8
ITEM_50
 10
-33.54069655709241
 20
-251.6640910894435
 30
0.0
  0
VERTEX
  8
ITEM_50
 10
-33.51253187243076
 20
-251.7110953197989
 30
0.0
  0
VERTEX
  8
ITEM_50
 10
-33.48818790573084
 20
-251.7594253537114
 30
0.0
  0
VERTEX
  8
ITEM_50
 10
-33.46791187991964
 20
-251.8088452430905
 30
0.0
  0
VERTEX
  8
ITEM_50
 10
-33.45195101792426
 20
-251.8591190398456
 30
0.0
  0
VERTEX
  8
ITEM_50
 10
-33.44055254267146
 20
-251.9100107958857
 30
0.0
  0
VERTEX
  8
ITEM_50
 10
-33.43396367708833
 20
-251.9612845631204
 30
0.0
  0
VERTEX
  8
ITEM_50
 10
-33.43243164410164
 20
-252.0127043934588
 30
0.0
  0
VERTEX
  8
ITEM_50
 10
-33.4362879471817
 20
-252.06414482244
 30
0.0
  0
VERTEX
  8
ITEM_50
 10
-33.44620121197197
 20
-252.1159223201224
 30
0.0
  0
VERTEX
  8
ITEM_50
 10
-33.46292434465879
 20
-252.1684638401936
 30
0.0
  0
VERTEX
  8
ITEM_50
 10
-33.48721025142884
 20
-252.2221963363417
 30
0.0
  0
VERTEX
  8
ITEM_50
 10
-33.51981183846879
 20
-252.2775467622547
 30
0.0
  0
VERTEX
  8
ITEM_50
 10
-33.5614820119652
 20
-252.3349420716203
 30
0.0
  0
VERTEX
  8
ITEM_50
 10
-33.61297367810453
 20
-252.3948092181268
 30
0.0
  0
VERTEX
  8
ITEM_50
 10
-33.67503974307367
 20
-252.4575751554618
 30
0.0
  0
VERTEX
  8
ITEM_50
 10
-33.74797612522427
 20
-252.5234514878657
 30
0.0
  0
VERTEX
  8
ITEM_50
 10
-33.83025079156987
 20
-252.5917884217867
 30
0.0
  0
VERTEX
  8
ITEM_50
 10
-33.91987472128908
 20
-252.6617208142259
 30
0.0
  0
VERTEX
  8
ITEM_50
 10
-34.01485889356052
 20
-252.7323835221841
 30
0.0
  0
VERTEX
  8
ITEM_50
 10
-34.11321428756314
 20
-252.8029114026617
 30
0.0
  0
VERTEX
  8
ITEM_50
 10
-34.21295188247534
 20
-252.8724393126598
 30
0.0
  0
VERTEX
  8
ITEM_50
 10
-34.31208265747607
 20
-252.9401021091789
 30
0.0
  0
VERTEX
  8
ITEM_50
 10
-34.40861759174384
 20
-253.0050346492199
 30
0.0
  0
VERTEX
  8
ITEM_50
 10
-34.50120070498251
 20
-253.0666376995364
 30
0.0
  0
VERTEX
  8
ITEM_50
 10
-34.59100817899598
 20
-253.1253756658945
 30
0.0
  0
VERTEX
  8
ITEM_50
 10
-34.67984923611316
 20
-253.1819788638129
 30
0.0
  0
VERTEX
  8
ITEM_50
 10
-34.76953309866308
 20
-253.2371776088103
 30
0.0
  0
VERTEX
  8
ITEM_50
 10
-34.86186898897488
 20
-253.2917022164058
 30
0.0
  0
VERTEX
  8
ITEM_50
 10
-34.95866612937725
 20
-253.3462830021181
 30
0.0
  0
VERTEX
  8
ITEM_50
 10
-35.06173374219945
 20
-253.4016502814661
 30
0.0
  0
VERTEX
  8
ITEM_50
 10
-35.17288104977017
 20
-253.4585343699686
 30
0.0
  0
VERTEX
  8
ITEM_50
 10
-35.29365694118501
 20
-253.5174773864531
 30
0.0
  0
VERTEX
  8
ITEM_50
 10
-35.42456897260438
 20
-253.5782686629814
 30
0.0
  0
VERTEX
  8
ITEM_50
 10
-35.56586436695538
 20
-253.6405093349242
 30
0.0
  0
VERTEX
  8
ITEM_50
 10
-35.71779034716478
 20
-253.7038005376516
 30
0.0
  0
VERTEX
  8
ITEM_50
 10
-35.88059413615967
 20
-253.7677434065343
 30
0.0
  0
VERTEX
  8
ITEM_50
 10
-36.05452295686682
 20
-253.8319390769429
 30
0.0
  0
VERTEX
  8
ITEM_50
 10
-36.23982403221344
 20
-253.8959886842476
 30
0.0
  0
VERTEX
  8
ITEM_50
 10
-36.43674458512617
 20
-253.959493363819
 30
0.0
  0
VERTEX
  8
ITEM_50
 10
-36.64852056809086
 20
-254.0221138435973
 30
0.0
  0
VERTEX
  8
ITEM_50
 10
-36.89034285182815
 20
-254.0837492218016
 30
0.0
  0
VERTEX
  8
ITEM_50
 10
-37.18039103661708
 20
-254.1443581892204
 30
0.0
  0
VERTEX
  8
ITEM_50
 10
-37.53684472273703
 20
-254.2038994366425
 30
0.0
  0
VERTEX
  8
ITEM_50
 10
-37.97788351046727
 20
-254.2623316548567
 30
0.0
  0
VERTEX
  8
ITEM_50
 10
-38.52168700008717
 20
-254.3196135346516
 30
0.0
  0
VERTEX
  8
ITEM_50
 10
-39.1864347918759
 20
-254.3757037668161
 30
0.0
  0
VERTEX
  8
ITEM_50
 10
-39.99030648611272
 20
-254.4305610421387
 30
0.0
  0
SEQEND
  8
ITEM_50
  0
ARC
  8
ITEM_50
 10
-34.54702551013559
 20
-250.4544074610703
 30
0.0
 40
0.4730201680392394
 50
190.6105188233005
 51
240.1549049653212
  0
LINE
  8
ITEM_50
 10
-35.01195777183072
 20
-250.5415055173459
 30
0.0
 11
-35.83865413226833
 21
-241.7328981565715
 31
0.0
  0
ARC
  8
ITEM_50
 10
-39.99030648611351
 20
-248.1439972234452
 30
0.0
 40
7.755795211671828
 50
58.88386060953354
 51
121.1161393904664
  0
ARC
  8
ITEM_50
 10
-43.84327137640882
 20
-241.7609302652707
 30
0.0
 40
0.3
 50
121.1161393904643
 51
174.6384401606908
  0
ARC
  8
ITEM_50
 10
-36.13734159581832
 20
-241.7609302652707
 30
0.0
 40
0.3
 50
5.36155983930902
 51
58.88386060953266
  0
LINE
  8
ITEM_25
 10
-41.99980648611359
 20
-276.7589101190421
 30
0.0
 11
-41.99980648611375
 21
-316.7589101190421
 31
0.0
  0
LINE
  8
ITEM_25
 10
-37.98080648611358
 20
-276.7589101190421
 30
0.0
 11
-37.98080648611374
 21
-316.758910119042
 31
0.0
  0
LINE
  8
ITEM_50
 10
35.25526880116382
 20
-316.7589101190421
 30
0.0
 11
53.25526880116382
 21
-316.7589101190422
 31
0.0
  0
LINE
  8
ITEM_50
 10
35.25526880116382
 20
-317.2589101190421
 30
0.0
 11
53.25526880116382
 21
-317.2589101190422
 31
0.0
  0
LINE
  8
ITEM_50
 10
53.25526880116382
 20
-317.2589101190422
 30
0.0
 11
53.25526880116382
 21
-316.7589101190422
 31
0.0
  0
LINE
  8
ITEM_50
 10
51.81384744492646
 20
-318.7003314752794
 30
0.0
 11
53.25526880116382
 21
-317.2589101190422
 31
0.0
  0
POINT
  8
ITEM_HILFE
 10
-39.99030648611371
 20
-316.7589101190421
 30
0.0
  0
POINT
  8
ITEM_HILFE
 10
-39.99030648611366
 20
-276.758910119042
 30
0.0
  0
POINT
  8
ITEM_HILFE
 10
44.2552688011638
 20
-276.7589101190421
 30
0.0
  0
POINT
  8
ITEM_HILFE
 10
44.25526880116375
 20
-316.7589101190421
 30
0.0
  0
POINT
  8
ITEM_HILFE
 10
-59.99030648611372
 20
-316.758910119042
 30
0.0
  0
POINT
  8
ITEM_HILFE
 10
-59.99030648611372
 20
-321.7589101190483
 30
0.0
  0
POINT
  8
ITEM_HILFE
 10
-19.99030648611372
 20
-316.758910119042
 30
0.0
  0
POINT
  8
ITEM_HILFE
 10
-19.99030648611372
 20
-321.7589101190484
 30
0.0
  0
ENDSEC
  0
EOF
